ISO-10303-21;
HEADER;
FILE_DESCRIPTION (( 'STEP AP203' ),
    '1' );
FILE_NAME ('B270-RNDF-25.4-0.8.STEP',
    '2021-01-05T01:23:21',
    ( '' ),
    ( '' ),
    'SwSTEP 2.0',
    'SolidWorks 2020',
    '' );
FILE_SCHEMA (( 'CONFIG_CONTROL_DESIGN' ));
ENDSEC;

DATA;
#1 = EDGE_LOOP ( 'NONE', ( #160, #12 ) ) ;
#2 = DIRECTION ( 'NONE',  ( 0.000000000000000000, 0.000000000000000000, -1.000000000000000000 ) ) ;
#3 = ORIENTED_EDGE ( 'NONE', *, *, #172, .T. ) ;
#4 = DIRECTION ( 'NONE',  ( -1.000000000000000000, -0.000000000000000000, -0.000000000000000000 ) ) ;
#5 = CYLINDRICAL_SURFACE ( 'NONE', #72, 12.69999999999999929 ) ;
#6 = SECURITY_CLASSIFICATION ( '', '', #146 ) ;
#7 = DIRECTION ( 'NONE',  ( -1.000000000000000000, -0.000000000000000000, -0.000000000000000000 ) ) ;
#8 = CARTESIAN_POINT ( 'NONE',  ( -1.187907395172932594E-15, 0.000000000000000000, 0.000000000000000000 ) ) ;
#9 = VECTOR ( 'NONE', #70, 1000.000000000000000 ) ;
#10 =( GEOMETRIC_REPRESENTATION_CONTEXT ( 3 ) GLOBAL_UNCERTAINTY_ASSIGNED_CONTEXT ( ( #167 ) ) GLOBAL_UNIT_ASSIGNED_CONTEXT ( ( #154, #30, #88 ) ) REPRESENTATION_CONTEXT ( 'NONE', 'WORKASPACE' ) );
#11 = FACE_OUTER_BOUND ( 'NONE', #151, .T. ) ;
#12 = ORIENTED_EDGE ( 'NONE', *, *, #164, .F. ) ;
#13 = PRODUCT_DEFINITION ( 'UNKNOWN', '', #79, #144 ) ;
#14 = FACE_OUTER_BOUND ( 'NONE', #32, .T. ) ;
#15 = DIRECTION ( 'NONE',  ( 1.000000000000000000, 0.000000000000000000, 0.000000000000000000 ) ) ;
#16 = DATE_TIME_ROLE ( 'creation_date' ) ;
#17 = EDGE_CURVE ( 'NONE', #103, #104, #137, .T. ) ;
#18 = CARTESIAN_POINT ( 'NONE',  ( -1.187907395172932594E-15, 1.555301434917138433E-15, -12.69999999999999929 ) ) ;
#19 = LINE ( 'NONE', #156, #9 ) ;
#20 = LINE ( 'NONE', #38, #105 ) ;
#21 = CALENDAR_DATE ( 2021, 5, 1 ) ;
#22 = ORIENTED_EDGE ( 'NONE', *, *, #17, .T. ) ;
#23 = LOCAL_TIME ( 9, 23, 21.00000000000000000, #175 ) ;
#24 = DIRECTION ( 'NONE',  ( -0.000000000000000000, 0.000000000000000000, 1.000000000000000000 ) ) ;
#25 = VERTEX_POINT ( 'NONE', #129 ) ;
#26 = CARTESIAN_POINT ( 'NONE',  ( -1.187907395172932594E-15, 0.000000000000000000, 0.000000000000000000 ) ) ;
#27 = APPROVAL_ROLE ( '' ) ;
#28 = APPLICATION_PROTOCOL_DEFINITION ( 'international standard', 'config_control_design', 1994, #75 ) ;
#29 = PERSON_AND_ORGANIZATION ( #115, #173 ) ;
#30 =( NAMED_UNIT ( * ) PLANE_ANGLE_UNIT ( ) SI_UNIT ( $, .RADIAN. ) );
#31 = CC_DESIGN_PERSON_AND_ORGANIZATION_ASSIGNMENT ( #170, #125, ( #6 ) ) ;
#32 = EDGE_LOOP ( 'NONE', ( #94, #96, #34, #130 ) ) ;
#33 = DIRECTION ( 'NONE',  ( 1.000000000000000000, 0.000000000000000000, 0.000000000000000000 ) ) ;
#34 = ORIENTED_EDGE ( 'NONE', *, *, #116, .T. ) ;
#35 = DIRECTION ( 'NONE',  ( -1.000000000000000000, -0.000000000000000000, -0.000000000000000000 ) ) ;
#36 = DIRECTION ( 'NONE',  ( 0.000000000000000000, 0.000000000000000000, 1.000000000000000000 ) ) ;
#37 = APPROVAL_STATUS ( 'not_yet_approved' ) ;
#38 = CARTESIAN_POINT ( 'NONE',  ( 0.000000000000000000, 0.000000000000000000, 12.69999999999999929 ) ) ;
#39 = DATE_AND_TIME ( #109, #126 ) ;
#40 = LOCAL_TIME ( 9, 23, 21.00000000000000000, #89 ) ;
#41 = APPLICATION_PROTOCOL_DEFINITION ( 'international standard', 'config_control_design', 1994, #113 ) ;
#42 = EDGE_CURVE ( 'NONE', #51, #25, #85, .T. ) ;
#43 = COORDINATED_UNIVERSAL_TIME_OFFSET ( 8, 0, .AHEAD. ) ;
#44 = APPROVAL_STATUS ( 'not_yet_approved' ) ;
#45 = CALENDAR_DATE ( 2021, 5, 1 ) ;
#46 = PRODUCT ( 'B270-RNDF-25.4-0.8', 'B270-RNDF-25.4-0.8', '', ( #73 ) ) ;
#47 = ORIENTED_EDGE ( 'NONE', *, *, #17, .F. ) ;
#48 = CYLINDRICAL_SURFACE ( 'NONE', #81, 12.69999999999999929 ) ;
#49 = CC_DESIGN_APPROVAL ( #60, ( #79 ) ) ;
#50 = AXIS2_PLACEMENT_3D ( 'NONE', #62, #33, #2 ) ;
#51 = VERTEX_POINT ( 'NONE', #117 ) ;
#52 = APPROVAL_PERSON_ORGANIZATION ( #53, #63, #27 ) ;
#53 = PERSON_AND_ORGANIZATION ( #115, #173 ) ;
#54 = CALENDAR_DATE ( 2021, 5, 1 ) ;
#55 = CC_DESIGN_PERSON_AND_ORGANIZATION_ASSIGNMENT ( #56, #111, ( #46 ) ) ;
#56 = PERSON_AND_ORGANIZATION ( #115, #173 ) ;
#57 = SHAPE_DEFINITION_REPRESENTATION ( #148, #139 ) ;
#58 = CC_DESIGN_APPROVAL ( #149, ( #6 ) ) ;
#59 = AXIS2_PLACEMENT_3D ( 'NONE', #26, #61, #82 ) ;
#60 = APPROVAL ( #123, 'UNSPECIFIED' ) ;
#61 = DIRECTION ( 'NONE',  ( -1.000000000000000000, -0.000000000000000000, -0.000000000000000000 ) ) ;
#62 = CARTESIAN_POINT ( 'NONE',  ( -5.939536975864662969E-16, 12.69999999999999929, 0.000000000000000000 ) ) ;
#63 = APPROVAL ( #37, 'UNSPECIFIED' ) ;
#64 = LOCAL_TIME ( 9, 23, 21.00000000000000000, #90 ) ;
#65 = ORIENTED_EDGE ( 'NONE', *, *, #127, .T. ) ;
#66 = CARTESIAN_POINT ( 'NONE',  ( 1.999999999999998224, 0.000000000000000000, 0.000000000000000000 ) ) ;
#67 = COORDINATED_UNIVERSAL_TIME_OFFSET ( 8, 0, .AHEAD. ) ;
#68 = APPROVAL_ROLE ( '' ) ;
#69 = DIRECTION ( 'NONE',  ( 0.000000000000000000, 0.000000000000000000, 1.000000000000000000 ) ) ;
#70 = DIRECTION ( 'NONE',  ( -1.000000000000000000, -0.000000000000000000, -0.000000000000000000 ) ) ;
#71 = AXIS2_PLACEMENT_3D ( 'NONE', #155, #69, #15 ) ;
#72 = AXIS2_PLACEMENT_3D ( 'NONE', #132, #4, #108 ) ;
#73 = MECHANICAL_CONTEXT ( 'NONE', #75, 'mechanical' ) ;
#74 = CC_DESIGN_DATE_AND_TIME_ASSIGNMENT ( #174, #76, ( #6 ) ) ;
#75 = APPLICATION_CONTEXT ( 'configuration controlled 3d designs of mechanical parts and assemblies' ) ;
#76 = DATE_TIME_ROLE ( 'classification_date' ) ;
#77 = AXIS2_PLACEMENT_3D ( 'NONE', #133, #150, #24 ) ;
#78 = ORIENTED_EDGE ( 'NONE', *, *, #42, .T. ) ;
#79 = PRODUCT_DEFINITION_FORMATION_WITH_SPECIFIED_SOURCE ( 'ANY', '', #46, .NOT_KNOWN. ) ;
#80 = CARTESIAN_POINT ( 'NONE',  ( 0.000000000000000000, 0.000000000000000000, 0.000000000000000000 ) ) ;
#81 = AXIS2_PLACEMENT_3D ( 'NONE', #80, #35, #153 ) ;
#82 = DIRECTION ( 'NONE',  ( 0.000000000000000000, 0.000000000000000000, 1.000000000000000000 ) ) ;
#83 = PERSON_AND_ORGANIZATION ( #115, #173 ) ;
#84 = PERSON_AND_ORGANIZATION_ROLE ( 'design_supplier' ) ;
#85 = CIRCLE ( 'NONE', #106, 12.69999999999999929 ) ;
#86 = ADVANCED_FACE ( 'NONE', ( #11 ), #91, .F. ) ;
#87 = ADVANCED_FACE ( 'NONE', ( #107 ), #118, .F. ) ;
#88 =( NAMED_UNIT ( * ) SI_UNIT ( $, .STERADIAN. ) SOLID_ANGLE_UNIT ( ) );
#89 = COORDINATED_UNIVERSAL_TIME_OFFSET ( 8, 0, .AHEAD. ) ;
#90 = COORDINATED_UNIVERSAL_TIME_OFFSET ( 8, 0, .AHEAD. ) ;
#91 = PLANE ( 'NONE',  #50 ) ;
#92 = ADVANCED_FACE ( 'NONE', ( #14 ), #48, .T. ) ;
#93 = CC_DESIGN_APPROVAL ( #63, ( #13 ) ) ;
#94 = ORIENTED_EDGE ( 'NONE', *, *, #127, .F. ) ;
#95 = FACE_OUTER_BOUND ( 'NONE', #163, .T. ) ;
#96 = ORIENTED_EDGE ( 'NONE', *, *, #164, .T. ) ;
#97 = CALENDAR_DATE ( 2021, 5, 1 ) ;
#98 = DIRECTION ( 'NONE',  ( -1.000000000000000000, -0.000000000000000000, -0.000000000000000000 ) ) ;
#99 = PERSON_AND_ORGANIZATION_ROLE ( 'creator' ) ;
#100 = AXIS2_PLACEMENT_3D ( 'NONE', #8, #7, #138 ) ;
#101 = ADVANCED_FACE ( 'NONE', ( #95 ), #5, .T. ) ;
#102 = APPROVAL_DATE_TIME ( #169, #63 ) ;
#103 = VERTEX_POINT ( 'NONE', #165 ) ;
#104 = VERTEX_POINT ( 'NONE', #18 ) ;
#105 = VECTOR ( 'NONE', #98, 1000.000000000000000 ) ;
#106 = AXIS2_PLACEMENT_3D ( 'NONE', #66, #161, #36 ) ;
#107 = FACE_OUTER_BOUND ( 'NONE', #1, .T. ) ;
#108 = DIRECTION ( 'NONE',  ( 0.000000000000000000, 0.000000000000000000, 1.000000000000000000 ) ) ;
#109 = CALENDAR_DATE ( 2021, 5, 1 ) ;
#110 = PERSON_AND_ORGANIZATION ( #115, #173 ) ;
#111 = PERSON_AND_ORGANIZATION_ROLE ( 'design_owner' ) ;
#112 = PRODUCT_RELATED_PRODUCT_CATEGORY ( 'detail', '', ( #46 ) ) ;
#113 = APPLICATION_CONTEXT ( 'configuration controlled 3d designs of mechanical parts and assemblies' ) ;
#114 = AXIS2_PLACEMENT_3D ( 'NONE', #120, #157, #166 ) ;
#115 = PERSON ( 'UNSPECIFIED', 'UNSPECIFIED', 'UNSPECIFIED', ('UNSPECIFIED'), ('UNSPECIFIED'), ('UNSPECIFIED') ) ;
#116 = EDGE_CURVE ( 'NONE', #51, #103, #20, .T. ) ;
#117 = CARTESIAN_POINT ( 'NONE',  ( 1.999999999999998224, 0.000000000000000000, 12.69999999999999929 ) ) ;
#118 = PLANE ( 'NONE',  #77 ) ;
#119 = APPROVAL_DATE_TIME ( #39, #60 ) ;
#120 = CARTESIAN_POINT ( 'NONE',  ( 1.999999999999998224, 0.000000000000000000, 0.000000000000000000 ) ) ;
#121 = CC_DESIGN_DATE_AND_TIME_ASSIGNMENT ( #168, #16, ( #13 ) ) ;
#122 = LOCAL_TIME ( 9, 23, 21.00000000000000000, #43 ) ;
#123 = APPROVAL_STATUS ( 'not_yet_approved' ) ;
#124 = CLOSED_SHELL ( 'NONE', ( #101, #92, #87, #86 ) ) ;
#125 = PERSON_AND_ORGANIZATION_ROLE ( 'classification_officer' ) ;
#126 = LOCAL_TIME ( 9, 23, 21.00000000000000000, #67 ) ;
#127 = EDGE_CURVE ( 'NONE', #25, #104, #19, .T. ) ;
#128 = CC_DESIGN_PERSON_AND_ORGANIZATION_ASSIGNMENT ( #29, #84, ( #79 ) ) ;
#129 = CARTESIAN_POINT ( 'NONE',  ( 1.999999999999998224, 1.555301434917138433E-15, -12.69999999999999929 ) ) ;
#130 = ORIENTED_EDGE ( 'NONE', *, *, #172, .F. ) ;
#131 = ORIENTED_EDGE ( 'NONE', *, *, #116, .F. ) ;
#132 = CARTESIAN_POINT ( 'NONE',  ( 0.000000000000000000, 0.000000000000000000, 0.000000000000000000 ) ) ;
#133 = CARTESIAN_POINT ( 'NONE',  ( 1.999999999999999112, 12.69999999999999929, 0.000000000000000000 ) ) ;
#134 = MANIFOLD_SOLID_BREP ( 'Ðý×', #124 ) ;
#135 = CC_DESIGN_PERSON_AND_ORGANIZATION_ASSIGNMENT ( #110, #99, ( #79 ) ) ;
#136 = APPROVAL_PERSON_ORGANIZATION ( #143, #149, #142 ) ;
#137 = CIRCLE ( 'NONE', #59, 12.69999999999999929 ) ;
#138 = DIRECTION ( 'NONE',  ( 0.000000000000000000, 0.000000000000000000, 1.000000000000000000 ) ) ;
#139 = ADVANCED_BREP_SHAPE_REPRESENTATION ( 'B270-RNDF-25.4-0.8', ( #134, #71 ), #10 ) ;
#140 = PERSON_AND_ORGANIZATION ( #115, #173 ) ;
#141 = CIRCLE ( 'NONE', #114, 12.69999999999999929 ) ;
#142 = APPROVAL_ROLE ( '' ) ;
#143 = PERSON_AND_ORGANIZATION ( #115, #173 ) ;
#144 = DESIGN_CONTEXT ( 'detailed design', #113, 'design' ) ;
#145 = APPROVAL_PERSON_ORGANIZATION ( #140, #60, #68 ) ;
#146 = SECURITY_CLASSIFICATION_LEVEL ( 'unclassified' ) ;
#147 = DATE_AND_TIME ( #21, #64 ) ;
#148 = PRODUCT_DEFINITION_SHAPE ( 'NONE', 'NONE',  #13 ) ;
#149 = APPROVAL ( #44, 'UNSPECIFIED' ) ;
#150 = DIRECTION ( 'NONE',  ( -1.000000000000000000, 0.000000000000000000, -0.000000000000000000 ) ) ;
#151 = EDGE_LOOP ( 'NONE', ( #22, #3 ) ) ;
#152 = CIRCLE ( 'NONE', #100, 12.69999999999999929 ) ;
#153 = DIRECTION ( 'NONE',  ( 0.000000000000000000, 0.000000000000000000, 1.000000000000000000 ) ) ;
#154 =( LENGTH_UNIT ( ) NAMED_UNIT ( * ) SI_UNIT ( .MILLI., .METRE. ) );
#155 = CARTESIAN_POINT ( 'NONE',  ( 0.000000000000000000, 0.000000000000000000, 0.000000000000000000 ) ) ;
#156 = CARTESIAN_POINT ( 'NONE',  ( 0.000000000000000000, 1.555301434917138433E-15, -12.69999999999999929 ) ) ;
#157 = DIRECTION ( 'NONE',  ( -1.000000000000000000, -0.000000000000000000, -0.000000000000000000 ) ) ;
#158 = PERSON_AND_ORGANIZATION_ROLE ( 'creator' ) ;
#159 = CC_DESIGN_PERSON_AND_ORGANIZATION_ASSIGNMENT ( #83, #158, ( #13 ) ) ;
#160 = ORIENTED_EDGE ( 'NONE', *, *, #42, .F. ) ;
#161 = DIRECTION ( 'NONE',  ( -1.000000000000000000, -0.000000000000000000, -0.000000000000000000 ) ) ;
#162 = CC_DESIGN_SECURITY_CLASSIFICATION ( #6, ( #79 ) ) ;
#163 = EDGE_LOOP ( 'NONE', ( #78, #65, #47, #131 ) ) ;
#164 = EDGE_CURVE ( 'NONE', #25, #51, #141, .T. ) ;
#165 = CARTESIAN_POINT ( 'NONE',  ( -1.187907395172932594E-15, 0.000000000000000000, 12.69999999999999929 ) ) ;
#166 = DIRECTION ( 'NONE',  ( 0.000000000000000000, 0.000000000000000000, 1.000000000000000000 ) ) ;
#167 = UNCERTAINTY_MEASURE_WITH_UNIT (LENGTH_MEASURE( 1.000000000000000082E-05 ), #154, 'distance_accuracy_value', 'NONE');
#168 = DATE_AND_TIME ( #54, #40 ) ;
#169 = DATE_AND_TIME ( #97, #122 ) ;
#170 = PERSON_AND_ORGANIZATION ( #115, #173 ) ;
#171 = APPROVAL_DATE_TIME ( #147, #149 ) ;
#172 = EDGE_CURVE ( 'NONE', #104, #103, #152, .T. ) ;
#173 = ORGANIZATION ( 'UNSPECIFIED', 'UNSPECIFIED', '' ) ;
#174 = DATE_AND_TIME ( #45, #23 ) ;
#175 = COORDINATED_UNIVERSAL_TIME_OFFSET ( 8, 0, .AHEAD. ) ;
ENDSEC;
END-ISO-10303-21;
